Yeni Akor Ekle | Bize Ulaşın | Anasayfaya dön
  • Sanatçı:
  • MSLM GRSES
  • Şarkı:
  • HANGMZ SEVMEDK (TAB SOLO)
  • Akor:
  • e------------------------------------------  [ark banda ayr bir]
    B------------------------------------------  [    hava katacaktr   ]
    G------------------------------------------        
    D------------------------------------------
    A------------------------------------------
    E--1-1-1-3---1-1-1s7-----1-1-1-3---1-1-1s8-
    
    e--8-10-8---8-10-8---10-8-7-8-7------------    hangimiz dmedik
    B------------------------------------------    kara sevdaya
    G------------------------------------------        
    D------------------------------------------
    A------------------------------------------
    E------------------------------------------
    
    e--8-10-8---10-8-7---5-7-3-0-5-------------    hangimiz sevmedik
    B------------------------------------------    lgnlar gibi
    G------------------------------------------        
    D------------------------------------------
    A------------------------------------------
    E------------------------------------------
    
    e--5-7-5---5-7-5---7-5-3-5-3---------------    hangimiz bir kuytu
    B------------------------------------------    ke banda
    G------------------------------------------        
    D------------------------------------------
    A------------------------------------------
    E------------------------------------------
    
    e--5-7-5---7-5-3---3-5-1-0-3---------------    bir vefasz iin
    B------------------------------------------    yol gzlemedik
    G------------------------------------------         
    D------------------------------------------
    A------------------------------------------
    E------------------------------------------
    
    
    
    NOT: STEK OLURSA GER KALAN KISMI, DLERSENZDE STEDNZ BR ARKIYI
    YORUMA YAZARAK LETEBLRSNZ. TEEKKRLER...
  • Görüntülenme:
  • 26736
  • Ekleyen:
  • adam41
Değerlendirmeniz:
1 5
3/5 (12 oy)