• Sanatçı :
  • Haluk Levent
  • Şarkı :
  • Yeterki(intro)
  • Akor
  • Yeter Ki (intro)  
    
      e-----------------------------------------------------
      B----10-8---10-8---10-8---10-8---10-8----11-11-10-----
      G-----------------------------------------------------
      D-----------------------------------------------------
      A----------------------------------------------------- 
      E----------------------------------------------------- 
    
      e-----------------------------------------------------
      B----------8------------------------------------------
      G----10-10-----10-8-8-7-7-----------------------------
      D-----------------------------------------------------
      A----------------------------------------------------- 
      E----------------------------------------------------- 
    
      e-----------------------------------------------------
      B----10-8---10-8---10-8---10-8---10-8----11-11-10-----
      G-----------------------------------------------------
      D-----------------------------------------------------
      A----------------------------------------------------- 
      E----------------------------------------------------- 
    
      e-----------------------------------------------------
      B----------8-10------8--------------------------------
      G----10-10--------10----------------------------------
      D-----------------------------------------------------
      A----------------------------------------------------- 
      E----------------------------------------------------- 
    
     söz aralarında
    
    
      e----8------------------------------------------------
      B------11-9-8-----------------------------------------
      G-----------------------------------------------------
      D-----------------------------------------------------
      A----------------------------------------------------- 
      E----------------------------------------------------- 
    
    
    
    
    
    
  • Görüntülenme :
  • 143
  • Ekleyen :

  • Yorum Bırakabilirsiniz. Yorum bırakabilirsiniz

    Adınız:
    *

    Yorumunuz:
    *

Değerlendirmeniz:
1 5
3/5 (1 oy)