Yeni Akor Ekle | Bize Ulaşın | Anasayfaya dön
  • Sanatçı:
  • BARIŞ MANÇO
  • Şarkı:
  • GÜLPEMBE (TAB)
  • Akor:
  • E---------------------------
    B---------------------------
    G---------------------------
    D-------7-5-7---------------
    A---5---------6-5-3-5-------
    E---------------------------
    
    E---------------------------
    B---------------------------
    G---------------------------
    D----5-3-5------------------
    A----------6-5-3-5----------
    E---------------------------
    
    E---------------------------
    B---------------------------
    G---------------------------
    D---3-2-3-------------------
    A---------6-5-3-------------
    E---------------------------
    
    E---------------------------
    B-------------------8-5--10-
    G---------------9-5---------
    D----------10-7-------------
    A---5-12-8------------------
    E---------------------------
  • Görüntülenme:
  • 7870
  • Ekleyen:
  • Emrah ANİTAŞ
Değerlendirmeniz:
1 5
2/5 (3 oy)