• Sanatçı :
  • pinhani
  • Şarkı :
  • hele bi gel v6
  • Akor
  • bu site gıcık bi site biraz da tab olsun dedim.
    
    ANA SOLO
    
    e--12~-10--12--10--10-9-10--10-9-10--12-10-9-10----------------
    B-----------------------------------------------9--------------
    G--------------------------------------------------------------
    D--------------------------------------------------------------
    A--------------------------------------------------------------
    E--------------------------------------------------------------
    
    
    e--12~-10--12--10-10-10-9-10--10-9-10--12--10--9--10-----------
    B----------------------------------------------------9---------
    G--------------------------------------------------------------
    D--------------------------------------------------------------
    A--------------------------------------------------------------
    E--------------------------------------------------------------
      
    SON SOLO
    
    e--------------------------------------------------------------
    B--------------------------------------------------------------
    G--2-4-5-4-5~-4-5-5-4-5-7-5-2-2-1-4-2--------------------------
    D-------------------------------------2-0-2-0-2-0-2------------
    A--------------------------------------------------------------
    E--------------------------------------------------------------
    
    
    e--5-7-8-7-8~-7-8-8-7-8-10-8-7-7-5-4-7-5-----------------------
    B----------------------------------------5-5-------------------
    G--------------------------------------------------------------
    D--------------------------------------------------------------
    A--------------------------------------------------------------
    E--------------------------------------------------------------
    
    
    e----------------------------4-5-4--------5~-------------------
    B--5-8--------5-8-8--------5-----------------8-----------------
    G------7-5----------7-5-------------7-5--------7-5---5---------
    D----------7------------7---------------7----------7-----------
    A--------------------------------------------------------------
    E--------------------------------------------------------------
    
    
    e---------13---------------------------------------------------
    B-15~-15~----15--15--13--15--15--13--15--15--13----------------  
    G-----------------------------------------------14-12-14~------
    D--------------------------------------------------------------
    A--------------------------------------------------------------
    E--------------------------------------------------------------
    
  • Görüntülenme :
  • 41
  • Ekleyen :
  • ahmet melih

  • Yorum Bırakabilirsiniz. Yorum bırakabilirsiniz

    Adınız:
    *

    Yorumunuz:
    *

Değerlendirmeniz:
1 5
3/5 (1 oy)