Yeni Akor Ekle | Bize Ulaşın | Anasayfaya dön
  • Sanatçı:
  • Tab Nasl Okunur?
  • Şarkı:
  • -
  • Akor:
  • Tablature (tab) ,gitar iin zel bir mzik notasdr.Tab bir gitar nota 
    zellii olarak var olmutur.Tab nota zelliini bir sistem olarak alglamak 
    doru olacaktr.Tab nota sisteminde, nota bilmeye gerek duymadan ok basit 
    ekilde anlalr bir nota tr olup evrenseldir.Dnyann Her yerinde ayn 
    ekilde kabul edilen kalplar erevesinde okunur ve yazlr...Tab Sisteminde 
    yazlan akor ve ya notalar Aadaki blmde belirttiimiz ekilde 
    gsterilir...
    
    Aada Tab Sisteminin Ana temas belirtilmektedir.Tab Sisteminde Tel 
    dizilileri ekildeki gibidir.
    
    e|-------------------------------1. Tel-----|
    B|-------------------------2. Tel-----------|
    G|-------------------3. Tel-----------------|
    D|-------------4. Tel-----------------------|
    A|-------5. Tel-----------------------------|
    E|-6. Tel-----------------------------------|
    
    
    Yukardaki tabloda belirttiimiz gibi artk tab sisteminde ne ekilde tel 
    dizilii bulunduunu rendik.imdi ise yapmamz gereken Bu olay bir rnekle 
    aklamak.
    
    e|--------0-----------0-----|
    B|------0---0-------0---0---|
    G|---0--------0---0-------0-|
    D|--------------------------|
    A|--------------------------|
    E|-0------------0-----------|
    Metallica - Nothing Else Matters
    
    
    Yukarda Metallica Grubunun Nothing Else Matters isimli parasnn tablar yer 
    almakta.Bu arky seme amacm ilk dzey iin gsterilmesi gereken 0 (sfr) 
    deerini iermesi. 0 deerinin anlam ; 0 deerinin bulunduu tele konulan 0 
    kadar bo vurmaktr. Demek istediim u ki ,Yukarda bulunan parada en baa 
    denk gelen dier deyile bakldnda size en yakn (sol ba) konumda bulunan 
    0 (sfr) , E (6.tel) telinde yer almaktadr.Demek oluyor ki 6. tele bir kere 
    bo vuracaz.Sonra ise sray takip ederek gittiimizde karmza G (3.tel) 
    kyor.Bundan sonra srasyla ; B (2.tel) , e (1.tel) sonra tekrar B (2.tel) 
    geliyor.imdi Pratik yapmaya balayn... Tab da alnan parann doru alp 
    almadnz kontrol etmek iin Tab n altndaki arknn ismine 
    tklaynz.Mp3 formatndaki arky indirdikten sonra kendi aldnzla 
    karlatrp eksik ynleri tamamlaynz.
    
    imdi ise baka rnekler ile rendiklerimiz pekitirelim.Bunun yine Metallica 
    grubunun One adl parasnn tab sistemini inceliyoruz..
    
    e|-----------------------------------------|
    B|-----------------------------------------|
    G|---------------------------------------0-|
    D|---4---0-----4---0-----4---0-----4---0---|
    A|-2---2---------------2---2---------------|
    E|-----------3---4---------------3---3-----|
    Metallica - One
    
    
    Ayn ekilde bu parada temel kurallar gz nne alp incelediimizde 
    karmza bilinmeyen bir konu kyor.Bunlar 2 , 4 , 3 gibi saylar.Bunlarn 
    anlam ise gitarn perdelerini belirtmektedir.2 no 'lu deer 2 numaral 
    perdeye baslmas komutunu verir.Peki hangi teldeki 2 no'lu perdeye?Bunun 
    yant sandnzdan ok ok basit.Yukardaki Tab da Belirtilmi olan ilk 2 
    deeri 5.Telde verilmi.Yani bu demek oluyor ki 5. telde 2 no 'lu perdeye 
    bas.Yine Srasyla ksaca ele alrsak.Srasyla | 5. telde 2 no'lu perde | , | 
    4.telde 4 no'lu perde | , | 4.tele bo vur |, |6.telde 3.perde | vs...
    
    Artk Tab Temeli Hakknda Geni Bir bilgiye sahip olduk.Artk Tab ile Akor 
    okuyup yazma faslna gelelim.Bunun iin Artk 2 Dersimize geebiliriz.
    
    Ders 2
    
    2.Dersimizde ise tab okuyarak akor nasl bas caz onu greceiz.Genelde 
    Elektro Gitar alanlar iin olan bu sistem sayesinde herkesin bilmedii akor 
    kalplar yaratarak akorlar herkesle paylap veya paylalanlar anlamaya 
    alcaz.Peki grdmz tablarn akor olup olmadn nasl anlayacaz?Her 
    zaman olduu gibi bu sorunun cevabn da hemen verelimBir Tab da ,ayn sra 
    stnde bulunan rakamlar onlarn akor olduunu belirtir....hemen aadaki 
    rnekle ne demek istediimizi daha iyi kavrayalm.
    
    e|---------|
    B|---------|
    G|---------|
    D|----5----|
    A|----3----|
    E|---------|
    
    
    Yukarda bulunan akor kalbnda st ste yazlm olan tab da 3 ve 5'inci tele 
    basma komutu verilmitir.Yukardaki resimde nasl baslaca belirtilmitir.
    
    imdi ii biraz daha zorlatralm.Bir rnek daha inceleyelim.Bu rnei ne 
    ekilde alacamz resimde belirttik. Sizde eer hata varsa resim ile 
    dzeltin.
    
    
    e|----3----|
    B|----0----|
    G|----0----|
    D|----0----|
    A|----2----|
    E|----3----|
    
    Artk Pratik zaman.Aadaki akorlarla pratik yapn.
    
    e|----0----|----0----|----2----|----0----|
    B|----2----|----1----|----3----|----0----|
    G|----2----|----0----|----2----|----1----|
    D|----2----|----2----|----0----|----2----|
    A|----0----|----3----|---------|----2----|
    E|---------|---------|---------|----0----|
    
    Sizde artk Tab Sisteminin Temel zelliklerini rendiniz. Tab ile artk 
    akorlar okuyabilirisiniz eer isterseniz.En mehur Akorlar eitlerine Akor 
    Kalplar Blmnden Sahip olabilirsiniz.
    
    Gerekten istiyorsanz sonuna kadar savan.
    
    
    Alnt:
    > vurgulama yaplacak
    / teli yukar ekiyoruz
    teli aagya ekiyoruz
    h Hammer-on/ pull off
    : tekrar
     Harmonic
    ~ teli tiretin
    
    Tesekkrler
    Tryh0p'er
  • Görüntülenme:
  • 34288
  • Ekleyen:
  • Tryh0p'er
Değerlendirmeniz:
1 5
4/5 (43 oy)